Prowler

Gtr. 1 w/dist
e|-----|---------------|-------------------|
B|-----|---------------|-------------------|
G|-----|*--------------|------------------*|
D|-2-2-|*2---2-2---2—2-|-2-2---2-2--2-2--2*|
A|-2-2-|-2---2-2---2-2-|-2-2---2—2--2-2--2-|
E|-----|---------------|-------------------|

Gtr. 2 w/dist & wah
e|-3--2-|-/5--3-2--3-2--||
B|-0----|---------------||
G|-0----|---------------||
D|------|---------------||
A|------|---------------||
E|------|---------------|| play 2x then:

e|-3--2-|-/5—-3-2—3-2--|----------------|
B|-3----|--------------|-5-3-5-3--------|
G|-2----|--------------|------trill-etc-|
D|------|--------------|----------------|
A|------|--------------|----------------|
E|------|--------------|----------------|

And then you would go to the verses.

« »

На правах рекламы:

3д печать в бресте, navigation