The Angel And The Gambler

INTRO

A REPEAT 4-TIMES A

----------------------------------------------------------------------------------------

----------------------------------------------------------------------------------------

----------------------------------------------------------------------------------------

14----14-14-14-14-14-14---14---16-14-12-----14-----14-14-14-14-14-14---14---16-14-12----

12----12-12-12-12-12-12---12---12-12-12-----12-----12-12-12-12-12-12---12---12-12-12----

----------------------------------------------------------------------------------------

G D C D

----------------------------------------------------------------------------------------

----------------------------------------------------------------------------------------

----------------------------------------------------------------------------------------

12----12-12-12-12-12-12---12---14-12-10-------------------------------------------------

10----10-10-10-10-10-10---10---10-10-10------12-12-12-12-12-12-12-12-12----10----12-----

---------------------------------------------10-10-10-10-10-10-10-10-10-----8----10-----

A A A A

Roll on the dice Take a spin on the wheel

A A A A

Out of your hands now So how do you feel

G D A

But youre not gonna win Youd better go back again

A A A A

Do you fell lucky Or do you feel scared

A A A A

Take what luck brings And the devil may care

G D A

But youre down on your luck And what will the next day bring

G G

Adrift on the ocean Afloat in a day dream

D A D A

Or lost in a maze Or blind in the Haze

G G

So what does it matter So why dont you answer

D A D A

So why did you send An angel to mend

A A A A

Best make decisions Before its too late

A A A

Take all your chances Take hold of the reins

G D A

A roll of the dice Ahead of the game again

A A A A

Nothing to lose But so much to gain

A A A A

A little danger It goes whitout saying

G D A

But what do you care Youre gonna go in the end

G G

Gate open to heaven Is ready and waiting

D A D A

or straight down to hell Can go there as well

G G G

ill suffer my craving My souls not worth saving

D A D A

So why dont you go Just leave well alone

A A

Dont you think im a saviour

G G

Dont you think I could save you

D D A

Dont you think I could save your life

A A

Dont you think im a saviour

D D

Dont you think I could save you

G G A

Dont you think I could save your life

A A

Dont you think im a saviour

G G

Dont you think I could save you

D D A

Dont you think I could save your life

A A

Dont you think im a saviour

D D

Dont you think I could save you

G G A

Dont you think I could save your life

A REPEAT 2-TIMES A

----------------------------------------------------------------------------------------

----------------------------------------------------------------------------------------

----------------------------------------------------------------------------------------

14----14-14-14-14-14-14---14---16-14-12-----14-----14-14-14-14-14-14---14---16-14-12----

12----12-12-12-12-12-12---12---12-12-12-----12-----12-12-12-12-12-12---12---12-12-12----

----------------------------------------------------------------------------------------

G D C D

----------------------------------------------------------------------------------------

----------------------------------------------------------------------------------------

----------------------------------------------------------------------------------------

12----12-12-12-12-12-12---12---14-12-10-------------------------------------------------

10----10-10-10-10-10-10---10---10-10-10------12-12-12-12-12-12-12-12-12----10----12-----

---------------------------------------------10-10-10-10-10-10-10-10-10-----8----10-----

----------------------------------------------------------------------------------------

------------------------------------------------------3---------------------------------

-2-------------------------------------------------------2---------------------2--------

----2-----------------------5-------------------------------0---------------------2-----

-------0-----------------------5-----------------------------------------------------0--

----------------------------------3-----------------------------------------------------

Dont you think im a saviour Dont you think I could save you Dont you think I could save your life

----------------------------------------------------------------------------------------

------------------------------------------------------3---------------------------------

-2-------------------------------------------------------2---------------------2--------

----2-----------------------5-------------------------------0---------------------2-----

-------0-----------------------5-----------------------------------------------------0--

----------------------------------3-----------------------------------------------------

Dont you think im a saviour Dont you think I could save you Dont you think I could save your life

----------------------------------------------------------------------------------------

----------------------------------------------------------------------------------------

-2----------------------------------------------------------------2---------------------

----2-------------------3----------------------5---------------------2------------------

-------0-------------------3----------------------5---------------------0---------------

------------------------------1----------------------3----------------------------------

Dont you think im a saviour Dont you think I could save you Dont you think I could save your life

----------------------------------------------------------------------------------------

----------------------------------------------------------------------------------------

-2---------------------------------------------5----------------------------------------

----2-------------------3-------------------------5------------------5------------------

-------0-------------------3-------------------------3------------------5---------------

------------------------------1--------------------------------------------3------------

Dont you think im a saviour Dont you think I could save you Dont you think I could save your life

----------------------------------------------------------------------------------------

------------------------3---------------------------------------------------------------

-2-------------------------2---------------------------------------------2--------------

----2-------------------------0----------------3----------------------------2-----------

-------0------------------------------------------3----------------------------0--------

-----------------------------------------------------1----------------------------------

Dont you think im a saviour Dont you think I could save you Dont you think I could save your life

----------------------------------------------------------------------------------------

----------------------------------------------------------------------------------------

-2-2-2-2-2-2-2-2-2-------------------------------------7-7-7-7-7-7-7-7-7----2-2-2-2-2-2-

-2-2-2-2-2-2-2-2-2----------5-5-5-5-5-5-5-5-5----------7-7-7-7-7-7-7-7-7----2-2-2-2-2-2-

-0-0-0-0-0-0-0-0-0----------5-5-5-5-5-5-5-5-5----------5-5-5-5-5-5-5-5-5----0-0-0-0-0-0-

----------------------------3-3-3-3-3-3-3-3-3-------------------------------------------

Dont you think im a saviour Dont you think I could save you Dont you think I could save your life

----------------------------------------------------------------------------------------

----------------------------------------------------------------------------------------

-2-2-2-2-2-2-2-2-2----------------------------------------------------------2-2-2-2-2-2-

-2-2-2-2-2-2-2-2-2----------3-3-3-3-3-3-3-3-3----------5-5-5-5-5-5-5-5-5----2-2-2-2-2-2-

-0-0-0-0-0-0-0-0-0----------3-3-3-3-3-3-3-3-3----------5-5-5-5-5-5-5-5-5----0-0-0-0-0-0-

----------------------------1-1-1-1-1-1-1-1-1----------3-3-3-3-3-3-3-3-3----------------

Dont you think im a saviour Dont you think I could save you Dont you think I could save your life

----------------------------------------------------------------------------------------

----------------------------------------------------------------------------------------

-2-2-2-2-2-2-2-2-2-------------------------------------5-5-5-5-5-5-5-5-5----------------

-2-2-2-2-2-2-2-2-2----------3-3-3-3-3-3-3-3-3----------5-5-5-5-5-5-5-5-5----5-5-5-5-5-5-

-0-0-0-0-0-0-0-0-0----------3-3-3-3-3-3-3-3-3----------3-3-3-3-3-3-3-3-3----5-5-5-5-5-5-

----------------------------1-1-1-1-1-1-1-1-1-------------------------------3-3-3-3-3-3-

gtr.2

----------------------------------------------------------------------------------------

----------------------------------------------------------------------------------------

-2---------------------------------------------5----------------------------------------

----2-------------------3-------------------------5------------------5------------------

-------0-------------------3-------------------------3------------------5---------------

------------------------------1--------------------------------------------3------------

Dont you think im a saviour Dont you think I could save you Dont you think I could save your life

----------------------------------------------------------------------------------------

----------------------------------------------------------------------------------------

-2-2-2-2-2-2-2-2-2----------7-7-7-7-7-7-7-7-7-------------------------------2-2-2-2-2-2-

-2-2-2-2-2-2-2-2-2----------7-7-7-7-7-7-7-7-7--------3-3-3-3-3-3-3-3--------2-2-2-2-2-2-

-0-0-0-0-0-0-0-0-0----------5-5-5-5-5-5-5-5-5--------3-3-3-3-3-3-3-3--------0-0-0-0-0-0-

-----------------------------------------------------1-1-1-1-1-1-1-1--------------------

gtr.2

----------------------------------------------------------------------------------------

------------------------3---------------------------------------------------------------

-2-------------------------2---------------------------------------------2--------------

----2-------------------------0----------------3----------------------------2-----------

-------0------------------------------------------3----------------------------0--------

-----------------------------------------------------1----------------------------------

Backround for solo:1

----------------------------------------------------------------------------------------

----------------------------------------------------------------------------------------

-2-2-2-2-2-2-2-2-2-------------------------------------7-7-7-7-7-7-7-7-7----2-2-2-2-2-2-

-2-2-2-2-2-2-2-2-2----------5-5-5-5-5-5-5-5-5----------7-7-7-7-7-7-7-7-7----2-2-2-2-2-2-

-0-0-0-0-0-0-0-0-0----------5-5-5-5-5-5-5-5-5----------5-5-5-5-5-5-5-5-5----0-0-0-0-0-0-

----------------------------3-3-3-3-3-3-3-3-3-------------------------------------------

----------------------------------------------------------------------------------------

----------------------------------------------------------------------------------------

-2-2-2-2-2-2-2-2-2-------------------------------------7-7-7-7-7-7-7-7-7----2-2-2-2-2-2-

-2-2-2-2-2-2-2-2-2----------5-5-5-5-5-5-5-5-5----------7-7-7-7-7-7-7-7-7----2-2-2-2-2-2-

-0-0-0-0-0-0-0-0-0----------5-5-5-5-5-5-5-5-5----------5-5-5-5-5-5-5-5-5----0-0-0-0-0-0-

----------------------------3-3-3-3-3-3-3-3-3-------------------------------------------

Backround for solo:2

----------------------------------------------------------------------------------------

----------------------------------------------------------------------------------------

-2-2-2-2-2-2-2-2-2-------------------------------------7-7-7-7-7---5-5-5-5--2-2-2-2-2-2-

-2-2-2-2-2-2-2-2-2----------5-5-5-5-5-5-5-5-5----------7-7-7-7-7---5-5-5-5--2-2-2-2-2-2-

-0-0-0-0-0-0-0-0-0----------5-5-5-5-5-5-5-5-5----------5-5-5-5-5---3-3-3-3--0-0-0-0-0-0-

----------------------------3-3-3-3-3-3-3-3-3-------------------------------------------

----------------------------------------------------------------------------------------

----------------------------------------------------------------------------------------

-2-2-2-2-2-2-2-2-2-------------------------------------7-7-7-7-7-7-7-7-7----2-2-2-2-2-2-

-2-2-2-2-2-2-2-2-2----------5-5-5-5-5-5-5-5-5----------7-7-7-7-7-7-7-7-7----2-2-2-2-2-2-

-0-0-0-0-0-0-0-0-0----------5-5-5-5-5-5-5-5-5----------5-5-5-5-5-5-5-5-5----0-0-0-0-0-0-

----------------------------3-3-3-3-3-3-3-3-3-------------------------------------------

A A A A

Theres like a hunger That knocks on the door

A A A A

Youve had a taste of it Still you want more

G D A

Youve made your mistakes Wont play it the same again

A A A A

You have been warned But still you plunge in

A A A A

You play high stakes But theres nothing to win

G D A

Youve only one life And so many things to learn

G G G

The angel on one side The Devil the other

D A D A

Which path do you take Decisions to make

Arrive at the crossroads You know where youre going

And what if you wait It may be too late

Dont you think im a saviour Dont you think I could save you Dont you think I could save your life

----------------------------------------------------------------------------------------

----------------------------------------------------------------------------------------

-2-2-2-2-2-2-2-2-2-------------------------------------7-7-7-7-7-7-7-7-7----2-2-2-2-2-2-

-2-2-2-2-2-2-2-2-2----------5-5-5-5-5-5-5-5-5----------7-7-7-7-7-7-7-7-7----2-2-2-2-2-2-

-0-0-0-0-0-0-0-0-0----------5-5-5-5-5-5-5-5-5----------5-5-5-5-5-5-5-5-5----0-0-0-0-0-0-

----------------------------3-3-3-3-3-3-3-3-3-------------------------------------------

Dont you think im a saviour Dont you think I could save you Dont you think I could save your life

----------------------------------------------------------------------------------------

----------------------------------------------------------------------------------------

-2-2-2-2-2-2-2-2-2----------------------------------------------------------2-2-2-2-2-2-

-2-2-2-2-2-2-2-2-2----------3-3-3-3-3-3-3-3-3----------5-5-5-5-5-5-5-5-5----2-2-2-2-2-2-

-0-0-0-0-0-0-0-0-0----------3-3-3-3-3-3-3-3-3----------5-5-5-5-5-5-5-5-5----0-0-0-0-0-0-

----------------------------1-1-1-1-1-1-1-1-1----------3-3-3-3-3-3-3-3-3----------------

Dont you think im a saviour Dont you think I could save you Dont you think I could save your life

----------------------------------------------------------------------------------------

----------------------------------------------------------------------------------------

-2-2-2-2-2-2-2-2-2-------------------------------------5-5-5-5-5-5-5-5-5----------------

-2-2-2-2-2-2-2-2-2----------3-3-3-3-3-3-3-3-3----------5-5-5-5-5-5-5-5-5----5-5-5-5-5-5-

-0-0-0-0-0-0-0-0-0----------3-3-3-3-3-3-3-3-3----------3-3-3-3-3-3-3-3-3----5-5-5-5-5-5-

----------------------------1-1-1-1-1-1-1-1-1-------------------------------3-3-3-3-3-3-

Dont you think im a saviour Dont you think I could save you Dont you think I could save your life

----------------------------------------------------------------------------------------

----------------------------------------------------------------------------------------

-2-2-2-2-2-2-2-2-2----------7-7-7-7-7-7-7-7-7-------------------------------2-2-2-2-2-2-

-2-2-2-2-2-2-2-2-2----------7-7-7-7-7-7-7-7-7--------3-3-3-3-3-3-3-3--------2-2-2-2-2-2-

-0-0-0-0-0-0-0-0-0----------5-5-5-5-5-5-5-5-5--------3-3-3-3-3-3-3-3--------0-0-0-0-0-0-

-----------------------------------------------------1-1-1-1-1-1-1-1--------------------

A REPEAT 2-TIMES A

----------------------------------------------------------------------------------------

----------------------------------------------------------------------------------------

----------------------------------------------------------------------------------------

14----14-14-14-14-14-14---14---16-14-12-----14-----14-14-14-14-14-14---14---16-14-12----

12----12-12-12-12-12-12---12---12-12-12-----12-----12-12-12-12-12-12---12---12-12-12----

----------------------------------------------------------------------------------------

G D C D A

----------------------------------------------------------------------------------------

----------------------------------------------------------------------------------------

----------------------------------------------------------------------------------------

12----12-12-12-12-12-12---12---14-12-10-------------------------------------------------

10----10-10-10-10-10-10---10---10-10-10------12-12-12-12-12-12-12-12-12----10----12---14

---------------------------------------------10-10-10-10-10-10-10-10-10-----8----10---12