The Clansman

|-------------------------------|-----------------------------------|
|-------------------------------|-------------------------8---------| Repeat
|----9—7h9-7h9—7/5-5h7-7p5------|----9-7h9-7h9-7/5-7-79-----9-79--| x4
|-7-------------------------7-5-|-7-------------------------------7-|
|-------------------------------|-----------------------------------|
|-------------------------------|-----------------------------------|

|-5ring-----5--7-8-7--5--3—-|
|--------5------------------|
|---------------------------| Repeat x2
|---------------------------|
|---------------------------|
|---------------------------|

|-5ring------5--7-8-7--5--3—-10ring--8--7--3---|
|---------5------------------------------------|
|----------------------------------------------|
|----------------------------------------------|
|----------------------------------------------|
|----------------------------------------------|

|-5ring-----5--7-8-7--5--3—-|
|--------5------------------|
|---------------------------| Repeat x2
|---------------------------|
|---------------------------|
|---------------------------|

|---------------------|
|---------------------|
|----7-9-----9-----9--| Repeat x4
|-7-------7-----7-----|
|---------------------|
|---------------------|

|-----------------------------------------------------------|
|-----------------------------------------------------------|
|----7-----9-9------7-----9-9-----7-----9-------10-------9--| Repeat x2
|-7-----7--------7-----7-------7-----7-----7-7------7-7-----|
|-----------------------------------------------------------|
|-----------------------------------------------------------|

|------------------------------------|---------------------------|
|------------------------------------|---------------------------|
|------------------------------------|---------------------------|
|-----10------12-12------10------12--|----5-----7-7-----5-----7--|
|-10------10---------10------10------|-5-----5-------5-----5-----|
|------------------------------------|---------------------------|

 

 

|-----------------------------------------------------------|
|-----------------------------------------------------------|
|----7-----9-9------7-----9-9-----7-----9-------10-------9--|
|-7-----7--------7-----7-------7-----7-----7-7------7-7-----|
|-----------------------------------------------------------|
|-----------------------------------------------------------|

|------------------------------------|---------------------------|
|------------------------------------|---------------------------|
|------------------------------------|---------------------------| Repeat x3
|-----10------12-12------10------12--|----5-----7-7-----5-----7--|
|-10------10---------10------10------|-5-----5-------5-----5-----|
|------------------------------------|---------------------------|

(Play this during the above riff)
Repeat x3 Repeat x1
|--10ring--8--7--5--|--3--7--3--5------|
|-------------------|------------------|
|-------------------|------------------|
|-------------------|------------------|
|-------------------|------------------|
|-------------------|------------------|

|---------------------------------------------------------|
|---------------------------------------------------------|
|----7-----9-9-----9-----9-9-----9-----9-9-----9-----9-9--|
|-7-----7-------7-----7-------7-----7-------7-----7-------|
|---------------------------------------------------------|
|---------------------------------------------------------|

« »

На правах рекламы:

У нас. http://poliplast.su/ прозрачная пластиковая упаковка