The Mercenary

Intro: Riff 1
Em
----------------------------------------
----------------------------------------
----------------------------------------
-9-7-9-12-11-9--9-7-9-12h11h14-
-7-5-7-10-9--7--7-5-7--10h9h-12-
-------------------------------------------

Verse:
Em
---------------------------
---------------------------
-------------------------
--9--7--9----12--11--9-
--7--5--7----10---9--7-
---------------------------
Pay to kill, die to lose

------------------------------------
------------------------------------
-----------------------------------
--9--7---9-12h-11h----14--
--7--5---7-10h-9h-----12--
------------------------
Hunted, hunter which you are

дальше также (на каждый слог)

Diablo come again
To make trophies out of men

Lose your skin, lose your skull
One by one the sack is full
In the heat dehydrate
Know which breath will be your last

Pre-chorus:
Em D C
---------------------------------------------
---------------------------------------------
---------------------------------------------
-9-9-9-9-9-9-7-7-7-7-7-7-7-7-5-5-5--
-7-7-7-7-7-7-5-5-5-5-5-5-5-5-3-3-3--
---------------------------------------------
Nowhere to run, nowhere to hide

C D Em
---------------------------------------------
---------------------------------------------
---------------------------------------------
-5-5-5-5-5-5-5-7-7-7-7-7-7-9-9-9-9-9-
-3-3-3-3-3-3-3-5-5-5-5-5-5-7-7-7-7-7-
---------------------------------------------
You?ve got to kill to stay alive
дальше также

Nowhere to run, nowhere to hide
You?ve got to kill to stay alive

Bridge=intro

Chorus:
C D Em
------------------------------------------------------------
------------------------------------------------------------
------------------------------------------------------------
-5-5-5-5-5-5-5-7-7-7-7-7-7-7-7-7-7-9-9-9-12-11-9-7--12-11-9-7
-3-3-3-3-3-3-3-5-5-5-5-5-5-5-5-5-5-7-7-7-10-9--7-5--10--9--7-5
-----------------------------------------------------------
Show them no fear, show them no pain

C D Em
-----------------------------------------------------------
------------------------------------------------------------
------------------------------------------------------------
-5-5-5-5-5-5-5-7-7-7-7-7-7-7-7-7-7-9-9-9-12-11-12-14-12-11-12-14
-3-3-3-3-3-3-3-5-5-5-5-5-5-5-5-5-5-7-7-7-10-9--10-12-10--9--10-12
------------------------------------------------------------
Show them no fear, show them no pain
дальше также

Show them no fear, show them no pain
Show them no fear, show them no pain.

« »

На правах рекламы:

• Лечение бесплодия в оскемене здесь.