The Prophecy

This is the intro riff: (clean electric)

e e e e q Q e e e e e q

E-------5--7--5-----7--|------1--3--1-----3--1-----|--------------------

B-------5--------5-----|------1--------1--------1--|--------------------

G---3:--5--------------|--4:--2--------------------|--------------------

D---4:-----------------|--4:--3--------------------|--------------------

A----------------------|---------------------------|--------------------

E----------------------|---------------------------|--------------------

e e e e q Q e e e e e q

E-------3--5--3-----3--|------5--5--------5--------|--------------------

B-------3--------3-----|------5-----5--------5-----|--------------------

G---3:--4--------------|--4:--5--------5--------5--|--------------------

D---4:--5--------------|--4:-----------------------|--------------------

A----------------------|---------------------------|--------------------

E----------------------|---------------------------|--------------------

This is the lead guitar part that plays over the inro riff (two guitars):

e e e e e e w e e e e e e

E--------12--13------12------|------|-------10--12------10------|-------

B---15^--12--13--15--12--13--|--15--|--13^--10--12--13--10--12--|-------

G---14^----------14------12--|--14--|--12^----------12------11--|-------

D----------------------------|------|---------------------------|-------

A----------------------------|------|---------------------------|-------

E----------------------------|------|---------------------------|-------

w

E-------|---------------------------------------------------------------

B---10--|---------------------------------------------------------------

G---9---|---------------------------------------------------------------

D-------|---------------------------------------------------------------

A-------|---------------------------------------------------------------

E-------|---------------------------------------------------------------

Then a third harmony part plays over top of the other two:

e e e e e e w e e e e e e

E--------17--18------17------|------|-------15--17------15------|-------

B---20^----------20------18--|--20--|--18^----------18------17--|-------

G----------------------------|------|---------------------------|-------

D----------------------------|------|---------------------------|-------

A----------------------------|------|---------------------------|-------

E----------------------------|------|---------------------------|-------

w

E-------|---------------------------------------------------------------

B---15--|---------------------------------------------------------------

G-------|---------------------------------------------------------------

D-------|---------------------------------------------------------------

A-------|---------------------------------------------------------------

E-------|---------------------------------------------------------------

Then this riff starts:

e e s s e e e e e s s e e e e e s s e e

E---||------------------------------------------------------------------

B---||------------------------------------------------------------------

G---||*-----------------------------------------------------------------

D---||*-----------------5-----------------------------------------5-----

A---||------5--5--7--8-----8--7--5--5--7--8--7--5-----5--5--7--8--------

E---||---8-----------------------------------------8--------------------

e e e e e e e e

E----------------------------||-----------------------------------------

B----------------------------||-----------------------------------------

G------------------------5--*||-----------------------------------------

D---------7--5-----7--8-----*||-----------------------------------------

A---8--7--------8------------||-----------------------------------------

E----------------------------||-----------------------------------------

This is the harmony that is played over top of the above riff:

e e s s e e e e e s s e e e e

E------------|------------------------------------------------|---------

B------------|------------------------------------------------|---------

G---12:------|---------------7--------------------------------|---------

D---8-:------|--7--7--9--10-----10--9--7--7--9--10--9--7------|---------

A--------10--|--------------------------------------------10--|---------

E------------|------------------------------------------------|---------

e s s e e e e e e e e e e e

E-------------------------------------------------|---------------------

B----------------------------------------------8--|---------------------

G----------------7------------9--7------9--10-----|---------------------

D---7--7--9--10-----10--9--7--------10------------|---------------------

A-------------------------------------------------|---------------------

E-------------------------------------------------|---------------------

This is the main verse riff:

Now that I'm out of the rut time has come.........

e s s e e e e e s s e e e e e s s e e

E--||-------------------------------------------------|-----------------

B--||-------------------------------------------------|-----------------

G--||*-12:--------------------------------------------|-----------------

D--||*-8-:--7-----------7--7--7--5-----------5--5--5--|-----------------

A--||-------5--5--5--5--5--5--5--3--3--3--3--3--3--3--|--5-----------5--

E--||-------------------------------------------------|--3--3--3--3--3--

e e e s s e e s s e

E----------------------------------||-----------------------------------

B----------------------------------||-----------------------------------

G---------------------------------*||-----------------------------------

D---------3-----------5-----------*||-----------------------------------

A---5--5--1--1--1--1--3--3--3--3---||-----------------------------------

E---3--3---------------------------||-----------------------------------

Then start playing this:

e s s e Q e s s e Q e s s e Q e s

E--------||---------------------------------|---------------------------

B--------||---------------------------------|---------------------------

G---12:--||*--------------------------------|---------------------------

D---8-:--||*--9-----------9--7-----------7--|--4-----------4--5---------

A--------||---7--7--7--7--7--5--5--5--5--5--|--2--2--2--2--2--3--3------

E--------||---------------------------------|---------------------------

s e e s s e

E----------------------||-----------------------------------------------

B----------------------||-----------------------------------------------

G---------------------*||-----------------------------------------------

D---------7-----------*||-----------------------------------------------

A---3--3--5--5--5--5---||-----------------------------------------------

E----------------------||-----------------------------------------------

e s s e q e e e e e e e e s s e q

E---||--------------------------------------------|---------------------

B---||--------------------------------------------|---------------------

G---||*--12:--------------------------------------|---------------------

D---||*--8-:--2-----------------4--5-----4--5-----|--2------------------

A---||--------0--0--0--0--0--0--2--3--0--2--3--0--|--0--0--0--0--0------

E---||--------------------------------------------|---------------------

e e e e e e e

E-------------------------||--------------------------------------------

B-------------------------||--------------------------------------------

G------------------------*||--------------------------------------------

D------4--5-----4--5-----*||--------------------------------------------

A---0--2--3--0--2--3--0---||--------------------------------------------

E-------------------------||--------------------------------------------

e s s e Q e s s e Q e s s e Q e s

E---||--------------------------------------|---------------------------

B---||--------------------------------------|---------------------------

G---||*--12:--------------------------------|---------------------------

D---||*--8-:--8-----------8-----------------|--6-----------6------------

A---||--------6--6--6--6--6--6-----------6--|--4--4--4--4--4--8---------

E---||-----------------------4--4--4--4--4--|-----------------6--6------

s e Q 3x e s s e e e e e s s e e e e e s

E-------------||--------------------------------------------|-----------

B-------------||--------------------------------------------|-----------

G------------*||--------------------------------------------|-----------

D------------*||--6-----------6--6--6--6-----------6--6--6--|-----------

A---------8---||--4--4--4--4--4--4--4--4--4--4--4--4--4--4--|--8--------

E---6--6--6---||--------------------------------------------|--6--6-----

s e e e e s s e e e

E---------------------------------|-------------------------------------

B---------------------------------|-------------------------------------

G---------------------------------|-------------------------------------

D---------------------------------|-------------------------------------

A---------8--8--8-----------8--8--|-------------------------------------

E---6--6--6--6--6--6--6--6--6--6--|-------------------------------------

Then a harmony interlude starts (two guitars):

E--------10--8---7-------7-------7-------------|------------------------

B--------12--10------10------10------8--8--10--|------------------------

G---12:----------12--11--12--11--12--9--9--11--|------------------------

D---8-:----------------------------------------|------------------------

A----------------------------------------------|------------------------

E----------------------------------------------|------------------------

e e e e e e e e e Q

E---7---------------7------r--r--r--|-----------------------------------

B-------8--8--8--8------8--e--e--e--|-----------------------------------

G---12--9--9--9--9--12--9--s--s--s--|-----------------------------------

D--------------------------t--t--t--|-----------------------------------

A-----------------------------------|-----------------------------------

E-----------------------------------|-----------------------------------

« »

На правах рекламы:

• Доставка груза из китая еще здесь.