The Talisman

Acoustic intro
E|-5h6p5-----------------8-----------------3h5p3-------------------3------|
B|--------6-------6--------------------------------5-------5--------------|
G|-----------7-------7--------------------------------5-------5-----------|
D|------------------------------------------------------------------------|
A|------------------------------------------------------------------------|
E|------------------------------------------------------------------------|X4

E|-5h6p5-----------------8-----------------3h5p3-------------------6------|
B|--------6------6--------------------------------5--------5--------------|
G|----------7-------7--------------------------------5--------5-----------|
D|------------------------------------------------------------------------|
A|------------------------------------------------------------------------|
E|------------------------------------------------------------------------|
As the captain calls us on the deck I take my things and walk

E|-5h6p5-----------------8-----------------0h1p0--------------------------|
B|--------6-------6------------------------------1--------1---------3-----|
G|----------7-------7-------------------------------2--------2------------|
D|------------------------------------------------------------------------|
A|------------------------------------------------------------------------|
E|------------------------------------------------------------------------|
To the harbor side I glance back one last time......

E|------------------------------------------------------------------------|
B|-1-----1-----6-------6---8-----8---6----5-------------------------------|
G|-0-----0-----5-------5---7-----7---5-------7----------------------------|
D|----2------------7----------9-------------------------------------------|
A|------------------------------------------------------------------------|
E|------------------------------------------------------------------------|
Fleeing our nation our problems we leave behind

E|------------------------------------------------------------------------|
B|-10------10---8-----8---6-----6---8-----8-------------------------------|
G|-10------10---7-----7---5-----5---7-----7-------------------------------|
D|-----10----------9---------7---------9----------------------------------|
A|------------------------------------------------------------------------|
E|------------------------------------------------------------------------|
Ships by the tenfold Out on the tide

E|------------------------------------------------------------------------|
B|-1-----1-----6-------6---8-----8---6----5-------------------------------|
G|-0-----0-----5-------5---7-----7---5-------7----------------------------|
D|----2------------7----------9-------------------------------------------|
A|------------------------------------------------------------------------|
E|------------------------------------------------------------------------|
We are pleased to be out and embracing the open sea

E|------------------------------------------------------------------------|
B|-10------10---8-----8---6-----6---8-----8-------------------------------|
G|-10------10---7-----7---5-----5---7-----7-------------------------------|
D|-----10----------9---------7---------9----------------------------------|
A|------------------------------------------------------------------------|
E|------------------------------------------------------------------------|
Free from the troubles And more free from thee

E|------------------------------------------------------------------------|
B|-1-----1-----6-------6---8-----8---6----5-------------------------------|
G|-0-----0-----5-------5---7-----7---5-------7----------------------------|
D|----2------------7----------9-------------------------------------------|
A|------------------------------------------------------------------------|
E|------------------------------------------------------------------------|
Inheritors unfulfilled reason behind us

E|------------------------------------------------------------------------|
B|-10------10---8-----8---6-----6---8-----8-------------------------------|
G|-10------10---7-----7---5-----5---7-----7-------------------------------|
D|-----10----------9---------7---------9----------------------------------|
A|------------------------------------------------------------------------|
E|------------------------------------------------------------------------|
We flee from what is not What is will be

E|------------------------------------------------------------------------|
B|-1-----1-----6-------6---8-----8---6----5-------------------------------|
G|-0-----0-----5-------5---7-----7---5-------7----------------------------|
D|----2------------7----------9-------------------------------------------|
A|------------------------------------------------------------------------|
E|------------------------------------------------------------------------|
We flee the earth And face our harsh reality

E|------------------------------------------------------------------------|
B|-10------10---8-----8---6-----6---8-----8-------------------------------|
G|-10------10---7-----7---5-----5---7-----7-------------------------------|
D|-----10----------9---------7---------9----------------------------------|
A|------------------------------------------------------------------------|
E|------------------------------------------------------------------------|
Will death be low mist That hangs on the sea?

E|------------------------------------------------------------------------|
B|-1-----1-----6-------6---8-----8---6----5-------------------------------|
G|-0-----0-----5-------5---7-----7---5-------7----------------------------|
D|----2------------7----------9-------------------------------------------|
A|------------------------------------------------------------------------|
E|------------------------------------------------------------------------|
We run from evil tongues Rash judgement, selfish men

 

E|------------------------------------------------------------------------|
B|-10------10---8-----8---6-----6---8-----8-------------------------------|
G|-10------10---7-----7---5-----5---7-----7-------------------------------|
D|-----10----------9---------7---------9----------------------------------|
A|------------------------------------------------------------------------|
E|------------------------------------------------------------------------|
Never to be seen On these shores again

E|------------------------------------------------------------------------|
B|-1-----1-----6-------6---8-----8---6----5-------------------------------|
G|-0-----0-----5-------5---7-----7---5-------7----------------------------|
D|----2------------7----------9-------------------------------------------|
A|------------------------------------------------------------------------|
E|------------------------------------------------------------------------|
As we sail into ocean size and lose sight of the land

E|------------------------------------------------------------------------|
B|-10------10---8-----8---6-----6---8-----8-------------------------------|
G|-10------10---7-----7---5-----5---7-----7-------------------------------|
D|-----10----------9---------7---------9----------------------------------|
A|------------------------------------------------------------------------|
E|------------------------------------------------------------------------|
A face of contentment around in the air

E|------------------------------------------------------------------------|
B|-1-----1-----6-------6---8-----8---6----5-------------------------------|
G|-0-----0-----5-------5---7-----7---5-------7----------------------------|
D|----2------------7----------9-------------------------------------------|
A|------------------------------------------------------------------------|
E|------------------------------------------------------------------------|
Were off now to seek all our fortunes to the land

 

E|------------------------------------------------------------------------|
B|-10------10---8-----8----3----------------------------------------------|
G|-10------10---7-----7----2----------------------------------------------|
D|-----10----------9-------0----------------------------------------------|
A|-------------------------0----------------------------------------------|
E|------------------------------------------------------------------------|
of.... our.......... dreams

Electric
E|------------------------------------------------------------------------|
B|------------------------------------------------------------------------|
G|------------------------------------------------------------------------|
D|-7-------7-------7--8-------8-------8--7-------7-------7----10----------|
A|-5-5-5-5-5-5-5-5-5--5-5-5-5-5-5-5-5-5--5-5-5-5-5-5-5-5-5-----8--10------|
E|-----------------------------------------------------------------8------|
Running the waves...

E|------------------------------------------------------------------------|
B|------------------------------------------------------------------------|
G|------------------------------------------------------------------------|
D|-7-----------10-----------7-----------10--------------------------------|
A|-5-----8------8----10-----5-----8------8---10---------------------------|
E|-------6------------8-----------6-----------8---------------------------|
No theres no one going back.....

 

E|------------------------------------------------------------------------|
B|------------------------------------------------------------------------|
G|------------------------------------------------------------------------|
D|-7-------7-------7--8-------8-------8--7-------7-------7----10----------|
A|-5-5-5-5-5-5-5-5-5--5-5-5-5-5-5-5-5-5--5-5-5-5-5-5-5-5-5-----8--10------|
E|-----------------------------------------------------------------8------|
As we ride the rough seas...

E|------------------------------------------------------------------------|
B|------------------------------------------------------------------------|
G|------------------------------------------------------------------------|
D|-7-----------10-----------7-----------10--------------------------------|
A|-5-----8------8----10-----5-----8------8---10---------------------------|
E|-------6------------8-----------6-----------8---------------------------|
Spirits, sails they drive us on...

E|------------------------------------------------------------------------|
B|------------------------------------------------------------------------|
G|-----10--9--------------10--9------------10--9--------12--10------------|
D|-12----------12--8--------------12--7------------12---------------------|
A|------------------------------------------------------------------------|
E|------------------------------------------------------------------------|

 

E|------------------------------------------------------------------------|
B|------------------------------------------------------------------------|
G|-----10--9--------------10--9------------10--9--------14--12------------|
D|-12----------12--8--------------12--7------------12---------------------|
A|------------------------------------------------------------------------|
E|------------------------------------------------------------------------|

 

E|------------------------------------------------------------------------|
B|------------------------------------------------------------------------|
G|------------------------------------------------------------------------|
D|-7-------7-------7--8-------8-------8--7-------7-------7----10----------|
A|-5-5-5-5-5-5-5-5-5--5-5-5-5-5-5-5-5-5--5-5-5-5-5-5-5-5-5-----8--10------|
E|-----------------------------------------------------------------8------|
Four leagues of ten...

E|------------------------------------------------------------------------|
B|------------------------------------------------------------------------|
G|------------------------------------------------------------------------|
D|-7-----------10-----------7-----------10--------------------------------|
A|-5-----8------8----10-----5-----8------8---10---------------------------|
E|-------6------------8-----------6-----------8---------------------------|
Holding on for our dear lives...

 

E|------------------------------------------------------------------------|
B|------------------------------------------------------------------------|
G|-----10--9--------------10--9------------10--9--------12--10------------|
D|-12----------12--8--------------12--7------------12---------------------|
A|------------------------------------------------------------------------|
E|------------------------------------------------------------------------|

 

E|------------------------------------------------------------------------|
B|------------------------------------------------------------------------|
G|-----10--9--------------10--9------------10--9--------14--12------------|
D|-12----------12--8--------------12--7------------12---------------------|
A|------------------------------------------------------------------------|
E|------------------------------------------------------------------------|

 

E|------------------------------------------------------------------------|
B|------------------------------------------------------------------------|
G|-2----3----------5----7-------------------------------------------------|
D|-2----3----------5----7-------------------------------------------------|
A|-0----1----------3----5-------------------------------------------------|
E|------------------------------------------------------------------------|

 

E|------------------------------------------------------------------------|
B|------------------------------------------------------------------------|
G|------------------------------------------------------------------------|
D|-7---------------------3------------------------------------------------|
A|-5-5-5-5-5-5-5-5-5-5---1-1-1-1-1-1-1-1-1-1------------------------------|
E|------------------------------------------------------------------------|
limbs fatigued, trembling with cold

E|------------------------------------------------------------------------|
B|------------------------------------------------------------------------|
G|------------------------------------------------------------------------|
D|------------------------------------------------------------------------|
A|-5---------------------7------------------------------------------------|
E|-3-3-3-3-3-3-3-3-3-3---5-5-5-5-5-5-5-5-5-5------------------------------|
Blinded from the sea spray salt

 

E|------------------------------------------------------------------------|
B|------------------------------------------------------------------------|
G|------------------------------------------------------------------------|
D|-7---------------------3------------------------------------------------|
A|-5-5-5-5-5-5-5-5-5-5---1-1-1-1-1-1-1-1-1-1------------------------------|
E|------------------------------------------------------------------------|
Clasping anything we can hold

E|------------------------------------------------------------------------|
B|------------------------------------------------------------------------|
G|------------------------------------------------------------------------|
D|------------------------------------------------------------------------|
A|-5---------------------7------------------------------------------------|
E|-3-3-3-3-3-3-3-3-3-3---5-5-5-5-5-5-5-5-5-5------------------------------|
Heaven's rain upon us falls

 

E|------------------------------------------------------------------------|
B|------------------------------------------------------------------------|
G|------------------------------------------------------------------------|
D|-7---------------------3------------------------------------------------|
A|-5-5-5-5-5-5-5-5-5-5---1-1-1-1-1-1-1-1-1-1------------------------------|
E|------------------------------------------------------------------------|
Twenty days without a meal

E|------------------------------------------------------------------------|
B|------------------------------------------------------------------------|
G|------------------------------------------------------------------------|
D|------------------------------------------------------------------------|
A|-5---------------------7------------------------------------------------|
E|-3-3-3-3-3-3-3-3-3-3---5-5-5-5-5-5-5-5-5-5------------------------------|
And ten without freshwaters too

 

E|------------------------------------------------------------------------|
B|------------------------------------------------------------------------|
G|------------------------------------------------------------------------|
D|-7---------------------3------------------------------------------------|
A|-5-5-5-5-5-5-5-5-5-5---1-1-1-1-1-1-1-1-1-1------------------------------|
E|------------------------------------------------------------------------|
Those that didn't die in storms

E|------------------------------------------------------------------------|
B|------------------------------------------------------------------------|
G|------------------------------------------------------------------------|
D|------------------------------------------------------------------------|
A|-5---------------------7------------------------------------------------|
E|-3-3-3-3-3-3-3-3-3-3---5-5-5-5-5-5-5-5-5-5------------------------------|
The scurvy rest did slaughter

 

E|------------------------------------------------------------------------|
B|------------------------------------------------------------------------|
G|-2----3-------5----7----------------------------------------------------|
D|-2----3-------5----7----------------------------------------------------|
A|-0----1-------3----5----------------------------------------------------|
E|------------------------------------------------------------------------|

 

E|------------------------------------------------------------------------|
B|------------------------------------------------------------------------|
G|------------------------------------------------------------------------|
D|-7------------------10--------------------------------------------------|
A|-5-5-5-5-5-5-5-5-5---8-8-8-8-8-8-8-8-8-8--------------------------------|
E|------------------------------------------------------------------------|
Westward the tide....

E|------------------------------------------------------------------------|
B|------------------------------------------------------------------------|
G|------------------------------------------------------------------------|
D|-5---------------------12-----------------------------------------------|
A|-3-3-3-3-3-3-3-3-3-3---10-10-10-10-10-10-10-10-10-10--------------------|
E|------------------------------------------------------------------------|

 

E|------------------------------------------------------------------------|
B|------------------------------------------------------------------------|
G|------------------------------------------------------------------------|
D|-7------------------10--------------------------------------------------|
A|-5-5-5-5-5-5-5-5-5---8-8-8-8-8-8-8-8-8-8--------------------------------|
E|------------------------------------------------------------------------|
Westward we sale on....

E|------------------------------------------------------------------------|
B|------------------------------------------------------------------------|
G|------------------------------------------------------------------------|
D|-5---------------------12-----------------------------------------------|
A|-3-3-3-3-3-3-3-3-3-3---10-10-10-10-10-10-10-10-10-10--------------------|
E|------------------------------------------------------------------------|

 

I'm sure someone will eventually upload this with a solo but heres right after it

E|------------------------------------------------------------------------|
B|------------------------------------------------------------------------|
G|------------------------------------------------------------------------|
D|-7------------------10--------------------------------------------------|
A|-5-5-5-5-5-5-5-5-5---8-8-8-8-8-8-8-8-8-8--------------------------------|
E|------------------------------------------------------------------------|
We approach the other side

E|------------------------------------------------------------------------|
B|------------------------------------------------------------------------|
G|------------------------------------------------------------------------|
D|-5---------------------12-----------------------------------------------|
A|-3-3-3-3-3-3-3-3-3-3---10-10-10-10-10-10-10-10-10-10--------------------|
E|------------------------------------------------------------------------|
Of the ocean with the tide

E|------------------------------------------------------------------------|
B|------------------------------------------------------------------------|
G|------------------------------------------------------------------------|
D|-7------------------10--------------------------------------------------|
A|-5-5-5-5-5-5-5-5-5---8-8-8-8-8-8-8-8-8-8--------------------------------|
E|------------------------------------------------------------------------|
In our favor just for once

E|------------------------------------------------------------------------|
B|------------------------------------------------------------------------|
G|------------------------------------------------------------------------|
D|-5---------------------12-----------------------------------------------|
A|-3-3-3-3-3-3-3-3-3-3---10-10-10-10-10-10-10-10-10-10--------------------|
E|------------------------------------------------------------------------|
Welcome greeting our new land

E|------------------------------------------------------------------------|
B|------------------------------------------------------------------------|
G|------------------------------------------------------------------------|
D|-7------------------10--------------------------------------------------|
A|-5-5-5-5-5-5-5-5-5---8-8-8-8-8-8-8-8-8-8--------------------------------|
E|------------------------------------------------------------------------|
The elation in our hearts

E|------------------------------------------------------------------------|
B|------------------------------------------------------------------------|
G|------------------------------------------------------------------------|
D|-5---------------------12-----------------------------------------------|
A|-3-3-3-3-3-3-3-3-3-3---10-10-10-10-10-10-10-10-10-10--------------------|
E|------------------------------------------------------------------------|
The excitement in our veins

 

E|------------------------------------------------------------------------|
B|------------------------------------------------------------------------|
G|------------------------------------------------------------------------|
D|-7------------------10--------------------------------------------------|
A|-5-5-5-5-5-5-5-5-5---8-8-8-8-8-8-8-8-8-8--------------------------------|
E|------------------------------------------------------------------------|
As we sail towards the coastlines

E|------------------------------------------------------------------------|
B|------------------------------------------------------------------------|
G|------------------------------------------------------------------------|
D|-5---------------------12-----------------------------------------------|
A|-3-3-3-3-3-3-3-3-3-3---10-10-10-10-10-10-10-10-10-10--------------------|
E|------------------------------------------------------------------------|
Of our golden promised land

 

E|------------------------------------------------------------------------|
B|------------------------------------------------------------------------|
G|-----10--9--------------10--9------------10--9--------12--10------------|
D|-12----------12--8--------------12--7------------12---------------------|
A|------------------------------------------------------------------------|
E|------------------------------------------------------------------------|

 

E|------------------------------------------------------------------------|
B|------------------------------------------------------------------------|
G|-----10--9--------------10--9------------10--9--------14--12------------|
D|-12----------12--8--------------12--7------------12---------------------|
A|------------------------------------------------------------------------|
E|------------------------------------------------------------------------|

 

E|------------------------------------------------------------------------|
B|------------------------------------------------------------------------|
G|-2----3-------5----7----------------------------------------------------|
D|-2----3-------5----7----------------------------------------------------|
A|-0----1-------3----5----------------------------------------------------|
E|------------------------------------------------------------------------|

 

E|------------------------------------------------------------------------|
B|------------------------------------------------------------------------|
G|------------------------------------------------------------------------|
D|-7---------------------3------------------------------------------------|
A|-5-5-5-5-5-5-5-5-5-5---1-1-1-1-1-1-1-1-1-1------------------------------|
E|------------------------------------------------------------------------|
Weary limbs fatigued away

E|------------------------------------------------------------------------|
B|------------------------------------------------------------------------|
G|------------------------------------------------------------------------|
D|10---------------------------5------------------------------------------|
A|-8-8-8-8-8-8-8-8-8-8---------3-3-3-3-3-3-3-3-3-3------------------------|
E|------------------------------------------------------------------------|
I have no life left in me

E|------------------------------------------------------------------------|
B|------------------------------------------------------------------------|
G|------------------------------------------------------------------------|
D|-7---------------------3------------------------------------------------|
A|-5-5-5-5-5-5-5-5-5-5---1-1-1-1-1-1-1-1-1-1------------------------------|
E|------------------------------------------------------------------------|
No more strength and nothing left to give

 

E|------------------------------------------------------------------------|
B|------------------------------------------------------------------------|
G|------------------------------------------------------------------------|
D|10---------------------------5------------------------------------------|
A|-8-8-8-8-8-8-8-8-8-8---------3-3-3-3-3-3-3-3-3-3------------------------|
E|------------------------------------------------------------------------|
Must find the will to live

 

E|------------------------------------------------------------------------|
B|------------------------------------------------------------------------|
G|------------------------------------------------------------------------|
D|-7---------------------3------------------------------------------------|
A|-5-5-5-5-5-5-5-5-5-5---1-1-1-1-1-1-1-1-1-1------------------------------|
E|------------------------------------------------------------------------|
Never thought that we could make it

 

E|------------------------------------------------------------------------|
B|------------------------------------------------------------------------|
G|------------------------------------------------------------------------|
D|10---------------------------5------------------------------------------|
A|-8-8-8-8-8-8-8-8-8-8---------3-3-3-3-3-3-3-3-3-3------------------------|
E|------------------------------------------------------------------------|
Truly sights of shores divine

 

E|------------------------------------------------------------------------|
B|------------------------------------------------------------------------|
G|------------------------------------------------------------------------|
D|-7---------------------3------------------------------------------------|
A|-5-5-5-5-5-5-5-5-5-5---1-1-1-1-1-1-1-1-1-1------------------------------|
E|------------------------------------------------------------------------|
The sickness I am dying from

E|------------------------------------------------------------------------|
B|------------------------------------------------------------------------|
G|------------------------------------------------------------------------|
D|10---------------------------5------------------------------------------|
A|-8-8-8-8-8-8-8-8-8-8---------3-3-3-3-3-3-3-3-3-3------------------------|
E|------------------------------------------------------------------------|
Never wanted it to end this way

 

E|------------------------------------------------------------------------|
B|------------------------------------------------------------------------|
G|------------------------------------------------------------------------|
D|-7------------------10--------------------------------------------------|
A|-5-5-5-5-5-5-5-5-5---8-8-8-8-8-8-8-8-8-8--------------------------------|
E|------------------------------------------------------------------------|
Westward the tide....

E|------------------------------------------------------------------------|
B|------------------------------------------------------------------------|
G|------------------------------------------------------------------------|
D|-5---------------------12-----------------------------------------------|
A|-3-3-3-3-3-3-3-3-3-3---10-10-10-10-10-10-10-10-10-10--------------------|
E|------------------------------------------------------------------------|

 

E|------------------------------------------------------------------------|
B|------------------------------------------------------------------------|
G|------------------------------------------------------------------------|
D|-7------------------10--------------------------------------------------|
A|-5-5-5-5-5-5-5-5-5---8-8-8-8-8-8-8-8-8-8--------------------------------|
E|------------------------------------------------------------------------|
Sail by the talisman....

 

E|------------------------------------------------------------------------|
B|------------------------------------------------------------------------|
G|------------------------------------------------------------------------|
D|-5---------------------12-----------------------------------------------|
A|-3-3-3-3-3-3-3-3-3-3---10-10-10-10-10-10-10-10-10-10--------------------|
E|------------------------------------------------------------------------|

« »

На правах рекламы:

• Надежные игровые аппараты бесплатно http://igrovyesloty.men/ в проверенном онлайн казино