Weekend Warrior

Riff 1:

E-------------------------|

B-------------------------|

G------0-------0----------|

D--7-----4-------5-----7--|

A----7-------5-------5-5--|

E-------------------------|

Verse:

E--------------|------------------|

B--------------|------------------|

G--2-----------|----------5-5-----|

D--2-----------|--5-5-----5-5-----|

A--0-----5-----|--5-5-----3-3-----|

E--------2-----|--3-3-------------|

Chorus:

A weekend warrior lately

E-----------------------0------|

B-----------------------0------|

G---------7------2------2------|

D--3------7------2------2------|

A--3------5------0-------------|

E--1---------------------------|

A weekend warrior sometimes

E-------------------------------|

B-------------------------------|

G---------7---------------------|

D--3------7------5--5-5---5--5--|

A--3------5------3--3-2---3--2--|

E--1----------------------------|

A weekend warrior maybe

E-----------------------0------|

B-----------------------0------|

G---------7------2------2------|

D--3------7------2------2------|

A--3------5------0-------------|

E--1---------------------------|

you ain't that way anymore

E------------------------------|

B------------------------------|

G---------7------2-------------|

D--3------7------2-------------|

A--3------5------0-------------|

E--1---------------------------|

Solo-riff 1:

E-----------------------------------------------------|

B-----------------------------------------------------|

G-----------------------------------------------------|

D--7-7-7-7---5-5-5-5---5-5---2-2-2-2---2-2-2-2--2--5--|

A--5-5-5-5---3-3-3-3---3-2---0-0-0-0---0-0-0-0--0--3--|

E-----------------------------------------------------|

E-----------------------------------------------------|

B-----------------------------------------------------|

G-----------------------------------------------------|

D--7-7-7-7---5-5-5-5---5-5-------------------------5--|

A--5-5-5-5---3-3-3-3---3-2---5-5-5-5---5-5-5-5--5--3--|

E----------------------------3-3-3-3---3-3-3-3--3-----|

Solo-riff 2:

E-----------------------------------|------------------0--------|

B-----------------------------------|------------------0--------|

G-----------------------------------|------------------0--------|

D-----------------------------------|--------2---------2--------|

A--3-3-3-3-3-3-3-3-3-3-3-3-3-3-3-3--|--------2------------------|

E-----------------------------------|--0-0-0-0------------------|

E-----------------------------------|--0----------------0--------|

B-----------------------------------|--0----------------0--------|

G-----------------------------------|--0----------------0--------|

D-----------------------------------|--2----------------2--------|

A--3-3-3-3-3-3-3-3-3-3-3-3-3-3-3-3--|--2-------------------------|

E-----------------------------------|--0-------------------------|

Solo-riff 3:

E-------------------------|--------------------|

B-------------------------|--------------------|

G--2---7---------0-----0--|--2---7-----7-7--5--|

D--2---7-------2-----4----|--2---7-----7-7--5--|

A--0---5-----3-----5------|--0---5-----5-5--3--|

E-------------------------|--------------------|

Songstructure:

Riff 1 (4 times)

Verse (6 times)

Riff 1 (4 times)

Verse (6 times)

Riff 1 (4 times)

Chorus (2 times)

Verse (6 times)

Riff 1 (4 times)

Chorus (2 times)

Solo-riff 1 (2 times)

Solo-riff 2 (2 times)

Solo-riff 1 (2 times)

Solo-riff 3 (2 times)

Verse (4 times)

Riff 1 (4 times)

Chorus (2 times)

Riff 1

« »

На правах рекламы:

• Пожарная вышка универсальная подробности на сайте.